  0
SECTION
  2
HEADER
  9
$ACADVER
  1
AC1015
  9
$ACADMAINTVER
 70
     6
  9
$DWGCODEPAGE
  3
ANSI_1254
  9
$INSBASE
 10
0.0
 20
0.0
 30
0.0
  9
$EXTMIN
 10
0.0
 20
0.0
 30
0.0
  9
$EXTMAX
 10
279.4
 20
215.9
 30
0.0
  9
$LIMMIN
 10
0.0
 20
0.0
  9
$LIMMAX
 10
279.4
 20
215.9
  9
$ORTHOMODE
 70
     0
  9
$REGENMODE
 70
     1
  9
$FILLMODE
 70
     1
  9
$QTEXTMODE
 70
     0
  9
$MIRRTEXT
 70
     1
  9
$LTSCALE
 40
1.0
  9
$ATTMODE
 70
     1
  9
$TEXTSIZE
 40
3.5
  9
$TRACEWID
 40
1.0
  9
$TEXTSTYLE
  7
Standard
  9
$CLAYER
  8
0
  9
$CELTYPE
  6
ByLayer
  9
$CECOLOR
 62
   256
  9
$CELTSCALE
 40
1.0
  9
$DISPSILH
 70
     0
  9
$DIMSCALE
 40
1.0
  9
$DIMASZ
 40
3.5
  9
$DIMEXO
 40
1.0
  9
$DIMDLI
 40
3.75
  9
$DIMRND
 40
0.0
  9
$DIMDLE
 40
0.0
  9
$DIMEXE
 40
1.0
  9
$DIMTP
 40
0.0
  9
$DIMTM
 40
0.0
  9
$DIMTXT
 40
3.5
  9
$DIMCEN
 40
2.5
  9
$DIMTSZ
 40
0.0
  9
$DIMTOL
 70
     0
  9
$DIMLIM
 70
     0
  9
$DIMTIH
 70
     1
  9
$DIMTOH
 70
     1
  9
$DIMSE1
 70
     0
  9
$DIMSE2
 70
     0
  9
$DIMTAD
 70
     1
  9
$DIMZIN
 70
     0
  9
$DIMBLK
  1

  9
$DIMASO
 70
     1
  9
$DIMSHO
 70
     1
  9
$DIMPOST
  1

  9
$DIMAPOST
  1

  9
$DIMALT
 70
     0
  9
$DIMALTD
 70
     3
  9
$DIMALTF
 40
0.0393700787
  9
$DIMLFAC
 40
1.0
  9
$DIMTOFL
 70
     1
  9
$DIMTVP
 40
0.0
  9
$DIMTIX
 70
     0
  9
$DIMSOXD
 70
     0
  9
$DIMSAH
 70
     0
  9
$DIMBLK1
  1

  9
$DIMBLK2
  1

  9
$DIMSTYLE
  2
ISO-25
  9
$DIMCLRD
 70
     0
  9
$DIMCLRE
 70
     0
  9
$DIMCLRT
 70
     0
  9
$DIMTFAC
 40
1.0
  9
$DIMGAP
 40
1.524
  9
$DIMJUST
 70
     0
  9
$DIMSD1
 70
     0
  9
$DIMSD2
 70
     0
  9
$DIMTOLJ
 70
     0
  9
$DIMTZIN
 70
     0
  9
$DIMALTZ
 70
     0
  9
$DIMALTTZ
 70
     0
  9
$DIMUPT
 70
     0
  9
$DIMDEC
 70
     2
  9
$DIMTDEC
 70
     2
  9
$DIMALTU
 70
     2
  9
$DIMALTTD
 70
     3
  9
$DIMTXSTY
  7
Standard
  9
$DIMAUNIT
 70
     0
  9
$DIMADEC
 70
     2
  9
$DIMALTRND
 40
0.0
  9
$DIMAZIN
 70
     0
  9
$DIMDSEP
 70
    44
  9
$DIMATFIT
 70
     3
  9
$DIMFRAC
 70
     0
  9
$DIMLDRBLK
  1

  9
$DIMLUNIT
 70
     2
  9
$DIMLWD
 70
    -2
  9
$DIMLWE
 70
    -2
  9
$DIMTMOVE
 70
     0
  9
$LUNITS
 70
     2
  9
$LUPREC
 70
     2
  9
$SKETCHINC
 40
1.0
  9
$FILLETRAD
 40
10.0
  9
$AUNITS
 70
     0
  9
$AUPREC
 70
     2
  9
$MENU
  1
.
  9
$ELEVATION
 40
0.0
  9
$PELEVATION
 40
0.0
  9
$THICKNESS
 40
0.0
  9
$LIMCHECK
 70
     0
  9
$CHAMFERA
 40
0.0
  9
$CHAMFERB
 40
0.0
  9
$CHAMFERC
 40
0.0
  9
$CHAMFERD
 40
0.0
  9
$SKPOLY
 70
     0
  9
$TDCREATE
 40
2460697.540941794
  9
$TDUCREATE
 40
2460697.415941794
  9
$TDUPDATE
 40
2460697.540941794
  9
$TDUUPDATE
 40
2460697.415941794
  9
$TDINDWG
 40
0.0000000116
  9
$TDUSRTIMER
 40
0.0000000116
  9
$USRTIMER
 70
     1
  9
$ANGBASE
 50
0.0
  9
$ANGDIR
 70
     0
  9
$PDMODE
 70
     0
  9
$PDSIZE
 40
-1.0
  9
$PLINEWID
 40
0.0
  9
$SPLFRAME
 70
     0
  9
$SPLINETYPE
 70
     6
  9
$SPLINESEGS
 70
     8
  9
$HANDSEED
  5
B2
  9
$SURFTAB1
 70
     6
  9
$SURFTAB2
 70
     6
  9
$SURFTYPE
 70
     6
  9
$SURFU
 70
     6
  9
$SURFV
 70
     6
  9
$UCSBASE
  2

  9
$UCSNAME
  2

  9
$UCSORG
 10
0.0
 20
0.0
 30
0.0
  9
$UCSXDIR
 10
1.0
 20
0.0
 30
0.0
  9
$UCSYDIR
 10
0.0
 20
1.0
 30
0.0
  9
$UCSORTHOREF
  2

  9
$UCSORTHOVIEW
 70
     0
  9
$UCSORGTOP
 10
0.0
 20
0.0
 30
0.0
  9
$UCSORGBOTTOM
 10
0.0
 20
0.0
 30
0.0
  9
$UCSORGLEFT
 10
0.0
 20
0.0
 30
0.0
  9
$UCSORGRIGHT
 10
0.0
 20
0.0
 30
0.0
  9
$UCSORGFRONT
 10
0.0
 20
0.0
 30
0.0
  9
$UCSORGBACK
 10
0.0
 20
0.0
 30
0.0
  9
$PUCSBASE
  2

  9
$PUCSNAME
  2

  9
$PUCSORG
 10
0.0
 20
0.0
 30
0.0
  9
$PUCSXDIR
 10
1.0
 20
0.0
 30
0.0
  9
$PUCSYDIR
 10
0.0
 20
1.0
 30
0.0
  9
$PUCSORTHOREF
  2

  9
$PUCSORTHOVIEW
 70
     0
  9
$PUCSORGTOP
 10
0.0
 20
0.0
 30
0.0
  9
$PUCSORGBOTTOM
 10
0.0
 20
0.0
 30
0.0
  9
$PUCSORGLEFT
 10
0.0
 20
0.0
 30
0.0
  9
$PUCSORGRIGHT
 10
0.0
 20
0.0
 30
0.0
  9
$PUCSORGFRONT
 10
0.0
 20
0.0
 30
0.0
  9
$PUCSORGBACK
 10
0.0
 20
0.0
 30
0.0
  9
$USERI1
 70
     0
  9
$USERI2
 70
     0
  9
$USERI3
 70
     0
  9
$USERI4
 70
     0
  9
$USERI5
 70
     0
  9
$USERR1
 40
0.0
  9
$USERR2
 40
0.0
  9
$USERR3
 40
0.0
  9
$USERR4
 40
0.0
  9
$USERR5
 40
0.0
  9
$WORLDVIEW
 70
     1
  9
$SHADEDGE
 70
     3
  9
$SHADEDIF
 70
    70
  9
$TILEMODE
 70
     1
  9
$MAXACTVP
 70
    64
  9
$PINSBASE
 10
0.0
 20
0.0
 30
0.0
  9
$PLIMCHECK
 70
     0
  9
$PEXTMIN
 10
1.0000000000E+20
 20
1.0000000000E+20
 30
1.0000000000E+20
  9
$PEXTMAX
 10
-1.0000000000E+20
 20
-1.0000000000E+20
 30
-1.0000000000E+20
  9
$PLIMMIN
 10
0.0
 20
0.0
  9
$PLIMMAX
 10
420.0
 20
297.0
  9
$UNITMODE
 70
     0
  9
$VISRETAIN
 70
     1
  9
$PLINEGEN
 70
     0
  9
$PSLTSCALE
 70
     1
  9
$TREEDEPTH
 70
  3020
  9
$CMLSTYLE
  2
Standard
  9
$CMLJUST
 70
     0
  9
$CMLSCALE
 40
20.0
  9
$PROXYGRAPHICS
 70
     1
  9
$MEASUREMENT
 70
     1
  9
$CELWEIGHT
370
    -1
  9
$ENDCAPS
280
     0
  9
$JOINSTYLE
280
     0
  9
$LWDISPLAY
290
     1
  9
$INSUNITS
 70
     4
  9
$HYPERLINKBASE
  1

  9
$STYLESHEET
  1

  9
$XEDIT
290
     1
  9
$CEPSNTYPE
380
     0
  9
$PSTYLEMODE
290
     1
  9
$FINGERPRINTGUID
  2
{d7865086-5d1a-46dc-91ee-70070c8a5366}
  9
$VERSIONGUID
  2
{FAEB1C32-E019-11D5-929B-00C0DF256EC4}
  9
$EXTNAMES
290
     1
  9
$PSVPSCALE
 40
0.0
  9
$OLESTARTUP
290
     0
  0
ENDSEC
  0
SECTION
  2
CLASSES
  0
CLASS
  1
ACDBDICTIONARYWDFLT
  2
AcDbDictionaryWithDefault
  3
ObjectDBX Classes
 90
        0
280
     0
281
     0
  0
CLASS
  1
VISUALSTYLE
  2
AcDbVisualStyle
  3
ObjectDBX Classes
 90
     4095
280
     0
281
     0
  0
CLASS
  1
MATERIAL
  2
AcDbMaterial
  3
ObjectDBX Classes
 90
     1153
280
     0
281
     0
  0
CLASS
  1
SCALE
  2
AcDbScale
  3
ObjectDBX Classes
 90
     1153
280
     0
281
     0
  0
CLASS
  1
TABLESTYLE
  2
AcDbTableStyle
  3
ObjectDBX Classes
 90
     4095
280
     0
281
     0
  0
CLASS
  1
MLEADERSTYLE
  2
AcDbMLeaderStyle
  3
ACDB_MLEADERSTYLE_CLASS
 90
     4095
280
     0
281
     0
  0
CLASS
  1
SUN
  2
AcDbSun
  3
SCENEOE
 90
     1153
280
     0
281
     0
  0
CLASS
  1
ACDBPLACEHOLDER
  2
AcDbPlaceHolder
  3
ObjectDBX Classes
 90
        0
280
     0
281
     0
  0
CLASS
  1
LAYOUT
  2
AcDbLayout
  3
ObjectDBX Classes
 90
        0
280
     0
281
     0
  0
ENDSEC
  0
SECTION
  2
TABLES
  0
TABLE
  2
VPORT
  5
8
330
0
100
AcDbSymbolTable
 70
     1
  0
VPORT
  5
29
330
8
100
AcDbSymbolTableRecord
100
AcDbViewportTableRecord
  2
*Active
 70
     0
 10
0.0
 20
0.0
 11
1.0
 21
1.0
 12
139.7
 22
107.95
 13
0.0
 23
0.0
 14
10.0
 24
10.0
 15
10.0
 25
10.0
 16
0.0
 26
0.0
 36
1.0
 17
0.0
 27
0.0
 37
0.0
 40
215.9
 41
1.2941176471
 42
50.0
 43
0.0
 44
0.0
 50
0.0
 51
0.0
 71
     0
 72
  2000
 73
     1
 74
     3
 75
     0
 76
     0
 77
     0
 78
     0
281
     0
 65
     1
110
0.0
120
0.0
130
0.0
111
1.0
121
0.0
131
0.0
112
0.0
122
1.0
132
0.0
 79
     0
146
0.0
  0
ENDTAB
  0
TABLE
  2
LTYPE
  5
5
330
0
100
AcDbSymbolTable
 70
     6
  0
LTYPE
  5
14
330
5
100
AcDbSymbolTableRecord
100
AcDbLinetypeTableRecord
  2
ByBlock
 70
     0
  3

 72
    65
 73
     0
 40
0.0
  0
LTYPE
  5
15
330
5
100
AcDbSymbolTableRecord
100
AcDbLinetypeTableRecord
  2
ByLayer
 70
     0
  3

 72
    65
 73
     0
 40
0.0
  0
LTYPE
  5
16
330
5
100
AcDbSymbolTableRecord
100
AcDbLinetypeTableRecord
  2
Continuous
 70
     0
  3
Solid line
 72
    65
 73
     0
 40
0.0
  0
LTYPE
  5
6E
330
5
100
AcDbSymbolTableRecord
100
AcDbLinetypeTableRecord
  2
HIDDEN
 70
     0
  3
Hidden __ __ __ __ __ __ __ __ __ __ __ __ __ __
 72
    65
 73
     2
 40
1.905
 49
1.27
 74
     0
 49
-0.635
 74
     0
  0
LTYPE
  5
6F
330
5
100
AcDbSymbolTableRecord
100
AcDbLinetypeTableRecord
  2
PHANTOM
 70
     0
  3
Phantom ______  __  __  ______  __  __  ______
 72
    65
 73
     6
 40
12.7
 49
6.35
 74
     0
 49
-1.27
 74
     0
 49
1.27
 74
     0
 49
-1.27
 74
     0
 49
1.27
 74
     0
 49
-1.27
 74
     0
  0
LTYPE
  5
70
330
5
100
AcDbSymbolTableRecord
100
AcDbLinetypeTableRecord
  2
CENTER
 70
     0
  3
Center ____ _ ____ _ ____ _ ____ _ ____ _ ____
 72
    65
 73
     4
 40
10.16
 49
6.35
 74
     0
 49
-1.27
 74
     0
 49
1.27
 74
     0
 49
-1.27
 74
     0
  0
LTYPE
  5
71
330
5
100
AcDbSymbolTableRecord
100
AcDbLinetypeTableRecord
  2
CENTERX2
 70
     0
  3
Center (2x) ________  __  ________  __  _____
 72
    65
 73
     4
 40
20.32
 49
12.7
 74
     0
 49
-2.54
 74
     0
 49
2.54
 74
     0
 49
-2.54
 74
     0
  0
LTYPE
  5
72
330
5
100
AcDbSymbolTableRecord
100
AcDbLinetypeTableRecord
  2
DOT2
 70
     0
  3
Dot (.5x) ........................................
 72
    65
 73
     2
 40
0.635
 49
0.0
 74
     0
 49
-0.635
 74
     0
  0
ENDTAB
  0
TABLE
  2
LAYER
  5
2
330
0
100
AcDbSymbolTable
 70
    17
  0
LAYER
  5
10
330
2
100
AcDbSymbolTableRecord
100
AcDbLayerTableRecord
  2
0
 70
     0
 62
     7
  6
Continuous
370
    -3
390
F
  0
LAYER
  5
73
330
2
100
AcDbSymbolTableRecord
100
AcDbLayerTableRecord
  2
FORMAT
 70
     0
 62
     7
  6
Continuous
370
    -3
390
F
  0
LAYER
  5
74
330
2
100
AcDbSymbolTableRecord
100
AcDbLayerTableRecord
  2
YARDIMCI_GEOMETRI
 70
     0
 62
    -6
  6
Continuous
290
     0
370
    -3
390
F
  0
LAYER
  5
75
330
2
100
AcDbSymbolTableRecord
100
AcDbLayerTableRecord
  2
SAYFA_CERCEVESI
 70
     0
 62
     7
  6
Continuous
370
    25
390
F
  0
LAYER
  5
76
330
2
100
AcDbSymbolTableRecord
100
AcDbLayerTableRecord
  2
ANTET
 70
     0
 62
     7
  6
Continuous
370
    -3
390
F
  0
LAYER
  5
77
330
2
100
AcDbSymbolTableRecord
100
AcDbLayerTableRecord
  2
OLCU
 70
     0
 62
   150
  6
Continuous
370
    -3
390
F
  0
LAYER
  5
78
330
2
100
AcDbSymbolTableRecord
100
AcDbLayerTableRecord
  2
METIN
 70
     0
 62
    96
  6
Continuous
370
    -3
390
F
  0
LAYER
  5
79
330
2
100
AcDbSymbolTableRecord
100
AcDbLayerTableRecord
  2
BALON
 70
     0
 62
     5
  6
Continuous
370
    -3
390
F
  0
LAYER
  5
7A
330
2
100
AcDbSymbolTableRecord
100
AcDbLayerTableRecord
  2
VURGU
 70
     0
 62
     7
  6
Continuous
370
    -3
390
F
  0
LAYER
  5
7B
330
2
100
AcDbSymbolTableRecord
100
AcDbLayerTableRecord
  2
SILIK
 70
     0
 62
     7
  6
Continuous
370
    -3
390
F
  0
LAYER
  5
7C
330
2
100
AcDbSymbolTableRecord
100
AcDbLayerTableRecord
  2
MODEL
 70
     0
 62
     7
  6
Continuous
370
    -3
390
F
  0
LAYER
  5
7D
330
2
100
AcDbSymbolTableRecord
100
AcDbLayerTableRecord
  2
DETAYLANDıRMA
 70
     0
 62
   190
  6
Continuous
370
    -3
390
F
  0
LAYER
  5
7E
330
2
100
AcDbSymbolTableRecord
100
AcDbLayerTableRecord
  2
TOLERANS
 70
     0
 62
   230
  6
Continuous
370
    -3
390
F
  0
LAYER
  5
7F
330
2
100
AcDbSymbolTableRecord
100
AcDbLayerTableRecord
  2
MERKEZ_CIZGILERI
 70
     0
 62
    30
  6
Continuous
370
    -3
390
F
  0
LAYER
  5
80
330
2
100
AcDbSymbolTableRecord
100
AcDbLayerTableRecord
  2
KESIT-DETAY_CIZGILERI
 70
     0
 62
     7
  6
Continuous
370
    -3
390
F
  0
LAYER
  5
81
330
2
100
AcDbSymbolTableRecord
100
AcDbLayerTableRecord
  2
\U+041E\U+0421\U+0415\U+0412\U+042B\U+0415
 70
     0
 62
     7
  6
Continuous
370
    -3
390
F
  0
LAYER
  5
82
330
2
100
AcDbSymbolTableRecord
100
AcDbLayerTableRecord
  2
\U+0412\U+041E\U+0414\U+042F\U+041D\U+042B\U+0415_\U+0417\U+041D\U+0410\U+041A\U+0418
 70
     0
 62
    11
  6
Continuous
370
    -3
390
F
  0
ENDTAB
  0
TABLE
  2
STYLE
  5
3
330
0
100
AcDbSymbolTable
 70
     1
  0
STYLE
  5
11
330
3
100
AcDbSymbolTableRecord
100
AcDbTextStyleTableRecord
  2
Standard
 70
     0
 40
0.0
 41
1.0
 50
0.0
 71
     0
 42
3.5
  3
txt
  4

  0
ENDTAB
  0
TABLE
  2
VIEW
  5
6
330
0
100
AcDbSymbolTable
 70
     0
  0
ENDTAB
  0
TABLE
  2
UCS
  5
7
330
0
100
AcDbSymbolTable
 70
     0
  0
ENDTAB
  0
TABLE
  2
APPID
  5
9
330
0
100
AcDbSymbolTable
 70
     1
  0
APPID
  5
12
330
9
100
AcDbSymbolTableRecord
100
AcDbRegAppTableRecord
  2
ACAD
 70
     0
  0
ENDTAB
  0
TABLE
  2
DIMSTYLE
  5
A
330
0
100
AcDbSymbolTable
 70
     1
100
AcDbDimStyleTable
  0
DIMSTYLE
105
27
330
A
100
AcDbSymbolTableRecord
100
AcDbDimStyleTableRecord
  2
ISO-25
 70
     0
 41
2.5
 42
0.625
 43
3.75
 44
1.25
 73
     0
 74
     0
 77
     1
 78
     8
140
2.5
141
2.5
143
0.0393700787
147
0.625
171
     3
172
     1
178
     0
271
     2
272
     2
274
     3
278
    44
283
     0
284
     8
340
11
  0
ENDTAB
  0
TABLE
  2
BLOCK_RECORD
  5
1
330
0
100
AcDbSymbolTable
 70
     2
  0
BLOCK_RECORD
  5
1F
330
1
100
AcDbSymbolTableRecord
100
AcDbBlockTableRecord
  2
*Model_Space
340
22
  0
BLOCK_RECORD
  5
1B
330
1
100
AcDbSymbolTableRecord
100
AcDbBlockTableRecord
  2
*Paper_Space
340
1E
  0
BLOCK_RECORD
  5
23
330
1
100
AcDbSymbolTableRecord
100
AcDbBlockTableRecord
  2
*Paper_Space0
340
26
  0
BLOCK_RECORD
  5
85
330
1
100
AcDbSymbolTableRecord
100
AcDbBlockTableRecord
  2
SW_CENTERMARKSYMBOL_0
340
0
102
{BLKREFS
331
90
102
}
  0
ENDTAB
  0
ENDSEC
  0
SECTION
  2
BLOCKS
  0
BLOCK
  5
20
330
1F
100
AcDbEntity
  8
0
100
AcDbBlockBegin
  2
*Model_Space
 70
     0
 10
0.0
 20
0.0
 30
0.0
  3
*Model_Space
  1

  0
ENDBLK
  5
21
330
1F
100
AcDbEntity
  8
0
100
AcDbBlockEnd
  0
BLOCK
  5
1C
330
1B
100
AcDbEntity
 67
     1
  8
0
100
AcDbBlockBegin
  2
*Paper_Space
 70
     0
 10
0.0
 20
0.0
 30
0.0
  3
*Paper_Space
  1

  0
ENDBLK
  5
1D
330
1B
100
AcDbEntity
 67
     1
  8
0
100
AcDbBlockEnd
  0
BLOCK
  5
24
330
23
100
AcDbEntity
  8
0
100
AcDbBlockBegin
  2
*Paper_Space0
 70
     0
 10
0.0
 20
0.0
 30
0.0
  3
*Paper_Space0
  1

  0
ENDBLK
  5
25
330
23
100
AcDbEntity
  8
0
100
AcDbBlockEnd
  0
BLOCK
  5
86
330
85
100
AcDbEntity
  8
0
100
AcDbBlockBegin
  2
SW_CENTERMARKSYMBOL_0
 70
     0
 10
0.0
 20
0.0
 30
0.0
  3
SW_CENTERMARKSYMBOL_0
  1

  0
LINE
  5
88
330
85
100
AcDbEntity
  8
FORMAT
 62
     0
100
AcDbLine
 10
0.0
 20
0.0
 30
0.0
 11
0.0
 21
2.5
 31
0.0
  0
LINE
  5
89
330
85
100
AcDbEntity
  8
FORMAT
 62
     0
100
AcDbLine
 10
0.0
 20
0.0
 30
0.0
 11
-2.5
 21
0.0
 31
0.0
  0
LINE
  5
8A
330
85
100
AcDbEntity
  8
FORMAT
 62
     0
100
AcDbLine
 10
0.0
 20
0.0
 30
0.0
 11
0.0
 21
-2.5
 31
0.0
  0
LINE
  5
8B
330
85
100
AcDbEntity
  8
FORMAT
 62
     0
100
AcDbLine
 10
0.0
 20
0.0
 30
0.0
 11
2.5
 21
0.0
 31
0.0
  0
LINE
  5
8C
330
85
100
AcDbEntity
  8
FORMAT
 62
     0
100
AcDbLine
 10
0.0
 20
5.0
 30
0.0
 11
0.0
 21
72.5
 31
0.0
  0
LINE
  5
8D
330
85
100
AcDbEntity
  8
FORMAT
 62
     0
100
AcDbLine
 10
-5.0
 20
0.0
 30
0.0
 11
-72.5
 21
0.0
 31
0.0
  0
LINE
  5
8E
330
85
100
AcDbEntity
  8
FORMAT
 62
     0
100
AcDbLine
 10
0.0
 20
-5.0
 30
0.0
 11
0.0
 21
-72.5
 31
0.0
  0
LINE
  5
8F
330
85
100
AcDbEntity
  8
FORMAT
 62
     0
100
AcDbLine
 10
5.0
 20
0.0
 30
0.0
 11
72.5
 21
0.0
 31
0.0
  0
ENDBLK
  5
87
330
85
100
AcDbEntity
  8
0
100
AcDbBlockEnd
  0
ENDSEC
  0
SECTION
  2
ENTITIES
  0
CIRCLE
  5
83
330
1F
100
AcDbEntity
  8
0
  6
Continuous
 62
     7
370
    25
100
AcDbCircle
 10
127.8025537254
 20
106.0321058177
 30
0.0
 40
57.30000000000001
  0
CIRCLE
  5
84
330
1F
100
AcDbEntity
  8
0
  6
Continuous
 62
     7
370
    25
100
AcDbCircle
 10
127.8025537254
 20
106.0321058177
 30
0.0
 40
70.0
  0
INSERT
  5
90
330
1F
100
AcDbEntity
  8
FORMAT
100
AcDbBlockReference
  2
SW_CENTERMARKSYMBOL_0
 10
127.8025537254
 20
106.0321058177
 30
0.0
  0
ARC
  5
91
330
1F
100
AcDbEntity
  8
0
  6
Continuous
 62
     7
370
    25
100
AcDbCircle
 10
125.8562615251
 20
417.4148751341
 30
0.0
 40
210.0
100
AcDbArc
 50
270.5310282157
 51
290.0354443722
  0
ARC
  5
92
330
1F
100
AcDbEntity
  8
0
  6
Continuous
 62
     7
370
    25
100
AcDbCircle
 10
129.7488459257
 20
417.4148751341
 30
0.0
 40
210.0
100
AcDbArc
 50
249.9645556278
 51
269.4689717843
  0
LINE
  5
93
330
1F
100
AcDbEntity
  8
0
  6
Continuous
 62
     7
370
    25
100
AcDbLine
 10
57.8025537254
 20
327.2197743677
 30
0.0
 11
57.8025537254
 21
220.1238945024
 31
0.0
  0
LINE
  5
94
330
1F
100
AcDbEntity
  8
0
  6
Continuous
 62
     7
370
    25
100
AcDbLine
 10
197.8025537254
 20
220.1238945024
 30
0.0
 11
197.8025537254
 21
327.2197743677
 31
0.0
  0
LINE
  5
95
330
1F
100
AcDbEntity
  8
0
  6
Continuous
 62
     7
370
    25
100
AcDbLine
 10
127.8025537254
 20
220.1238945024
 30
0.0
 11
197.8025537254
 21
220.1238945024
 31
0.0
  0
LINE
  5
96
330
1F
100
AcDbEntity
  8
0
  6
Continuous
 62
     7
370
    25
100
AcDbLine
 10
57.8025537254
 20
220.1238945024
 30
0.0
 11
127.8025537254
 21
220.1238945024
 31
0.0
  0
LINE
  5
97
330
1F
100
AcDbEntity
  8
0
  6
Continuous
 62
     7
370
    25
100
AcDbLine
 10
127.8025537254
 20
327.2197743677
 30
0.0
 11
197.8025537254
 21
327.2197743677
 31
0.0
  0
LINE
  5
98
330
1F
100
AcDbEntity
  8
0
  6
Continuous
 62
     7
370
    25
100
AcDbLine
 10
57.8025537254
 20
327.2197743677
 30
0.0
 11
127.8025537254
 21
327.2197743677
 31
0.0
  0
LINE
  5
99
330
1F
100
AcDbEntity
  8
0
  6
Continuous
 62
     7
370
    25
100
AcDbLine
 10
197.8025537254
 20
-134.1758550946
 30
0.0
 11
197.8025537254
 21
-27.0799752292
 31
0.0
  0
LINE
  5
9A
330
1F
100
AcDbEntity
  8
0
  6
Continuous
 62
     7
370
    25
100
AcDbLine
 10
57.8025537254
 20
-27.0799752292
 30
0.0
 11
57.8025537254
 21
-134.1758550946
 31
0.0
  0
ARC
  5
9B
330
1F
100
AcDbEntity
  8
0
  6
Continuous
 62
     7
370
    25
100
AcDbCircle
 10
129.7488459257
 20
-224.3709558609
 30
0.0
 40
210.0
100
AcDbArc
 50
90.5310282157
 51
110.0354443722
  0
ARC
  5
9C
330
1F
100
AcDbEntity
  8
0
  6
Continuous
 62
     7
370
    25
100
AcDbCircle
 10
125.8562615251
 20
-224.3709558609
 30
0.0
 40
210.0
100
AcDbArc
 50
69.9645556278
 51
89.4689717843
  0
LINE
  5
9D
330
1F
100
AcDbEntity
  8
0
  6
Continuous
 62
     7
370
    25
100
AcDbLine
 10
197.8025537254
 20
-134.1758550946
 30
0.0
 11
57.8025537254
 21
-134.1758550946
 31
0.0
  0
LINE
  5
9E
330
1F
100
AcDbEntity
  8
0
  6
Continuous
 62
     7
370
    25
100
AcDbLine
 10
197.8025537254
 20
-27.0799752292
 30
0.0
 11
57.8025537254
 21
-27.0799752292
 31
0.0
  0
ARC
  5
9F
330
1F
100
AcDbEntity
  8
0
  6
Continuous
 62
     7
370
    25
100
AcDbCircle
 10
459.1911743339
 20
107.978398018
 30
0.0
 40
210.0000000000001
100
AcDbArc
 50
180.5310282157
 51
200.0354443722
  0
ARC
  5
A0
330
1F
100
AcDbEntity
  8
0
  6
Continuous
 62
     7
370
    25
100
AcDbCircle
 10
459.1911743339
 20
104.0858136173
 30
0.0
 40
210.0000000000001
100
AcDbArc
 50
159.9645556278
 51
179.4689717843
  0
LINE
  5
A1
330
1F
100
AcDbEntity
  8
0
  6
Continuous
 62
     7
370
    25
100
AcDbLine
 10
368.9960735676
 20
176.0321058177
 30
0.0
 11
261.9001937022
 21
176.0321058177
 31
0.0
  0
LINE
  5
A2
330
1F
100
AcDbEntity
  8
0
  6
Continuous
 62
     7
370
    25
100
AcDbLine
 10
261.9001937022
 20
36.0321058177
 30
0.0
 11
368.9960735676
 21
36.0321058177
 31
0.0
  0
LINE
  5
A3
330
1F
100
AcDbEntity
  8
0
  6
Continuous
 62
     7
370
    25
100
AcDbLine
 10
261.9001937022
 20
176.0321058177
 30
0.0
 11
261.9001937022
 21
36.0321058177
 31
0.0
  0
LINE
  5
A4
330
1F
100
AcDbEntity
  8
0
  6
Continuous
 62
     7
370
    25
100
AcDbLine
 10
368.9960735676
 20
176.0321058177
 30
0.0
 11
368.9960735676
 21
36.0321058177
 31
0.0
  0
ARC
  5
A5
330
1F
100
AcDbEntity
  8
0
  6
Continuous
 62
     7
370
    25
100
AcDbCircle
 10
-195.2504713409
 20
104.0858136173
 30
0.0
 40
210.0000000000001
100
AcDbArc
 50
0.5310282157
 51
20.0354443722
  0
ARC
  5
A6
330
1F
100
AcDbEntity
  8
0
  6
Continuous
 62
     7
370
    25
100
AcDbCircle
 10
-195.2504713409
 20
107.978398018
 30
0.0
 40
210.0000000000001
100
AcDbArc
 50
339.9645556278
 51
359.4689717843
  0
LINE
  5
A7
330
1F
100
AcDbEntity
  8
0
  6
Continuous
 62
     7
370
    25
100
AcDbLine
 10
-105.0553705745
 20
36.0321058177
 30
0.0
 11
2.0405092909
 21
36.0321058177
 31
0.0
  0
LINE
  5
A8
330
1F
100
AcDbEntity
  8
0
  6
Continuous
 62
     7
370
    25
100
AcDbLine
 10
2.0405092909
 20
176.0321058177
 30
0.0
 11
-105.0553705745
 21
176.0321058177
 31
0.0
  0
LINE
  5
A9
330
1F
100
AcDbEntity
  8
0
  6
Continuous
 62
     7
370
    25
100
AcDbLine
 10
2.0405092909
 20
36.0321058177
 30
0.0
 11
2.0405092909
 21
176.0321058177
 31
0.0
  0
LINE
  5
AA
330
1F
100
AcDbEntity
  8
0
  6
Continuous
 62
     7
370
    25
100
AcDbLine
 10
-105.0553705745
 20
36.0321058177
 30
0.0
 11
-105.0553705745
 21
176.0321058177
 31
0.0
  0
LINE
  5
AB
330
1F
100
AcDbEntity
  8
0
  6
Continuous
 62
     7
370
    25
100
AcDbLine
 10
254.0450286443
 20
-138.524743594
 30
0.0
 11
329.7732515343
 21
-182.2417161264
 31
0.0
  0
LINE
  5
AC
330
1F
100
AcDbEntity
  8
0
  6
Continuous
 62
     7
370
    25
100
AcDbLine
 10
399.7675628188
 20
-60.9948753931
 30
0.0
 11
324.0393399289
 21
-17.2779028607
 31
0.0
  0
LWPOLYLINE
  5
AD
330
1F
100
AcDbEntity
  8
0
  6
Continuous
 62
     7
370
    25
100
AcDbPolyline
 90
      133
 70
   128
 43
0.0
 10
289.0421842866
 20
-135.0591800593
 10
291.3973689605
 20
-133.6348204226
 10
293.7472183835
 20
-132.0842064889
 10
296.0864093911
 20
-130.4108508976
 10
298.4096429631
 20
-128.6185443373
 10
300.7116562283
 20
-126.7113469588
 10
302.9872343863
 20
-124.6935791776
 10
305.2312225205
 20
-122.5698118866
 10
307.4385372763
 20
-120.3448561019
 10
309.6041783756
 20
-118.023752064
 10
311.7232399449
 20
-115.6117578201
 10
313.7909216281
 20
-113.1143373128
 10
315.8025394612
 20
-110.5371480029
 10
317.7535364828
 20
-107.8860280532
 10
319.6394930572
 20
-105.1669831029
 10
321.456136886
 20
-102.3861726634
 10
323.1993526867
 20
-99.5498961647
 10
324.865191515
 20
-96.6645786855
 10
326.4498797099
 20
-93.7367563977
 10
327.9498274432
 20
-90.7730617606
 10
329.3616368506
 20
-87.7802084958
 10
330.6821097299
 20
-84.7649763784
 10
331.9082547853
 20
-81.734195879
 10
333.0372944038
 20
-78.6947326903
 10
334.0666709476
 20
-75.653472174
 10
334.9940525476
 20
-72.6173037633
 10
335.8173383864
 20
-69.5931053562
 10
336.5346634567
 20
-66.5877277348
 10
337.1444027864
 20
-63.6079790461
 10
337.6451751199
 20
-60.6606093791
 10
338.0358460469
 20
-57.7522954742
 10
338.3155305719
 20
-54.8896255977
 10
338.4835951195
 20
-52.0790846177
 10
338.5396589697
 20
-49.3270393135
 10
338.4835951195
 20
-46.6397239528
 10
338.3155305719
 20
-44.0232261693
 10
338.0358460469
 20
-41.483473172
 10
337.6451751199
 20
-39.0262183182
 10
337.1444027864
 20
-36.6570280806
 10
336.5346634567
 20
-34.3812694371
 10
335.8173383864
 20
-32.204097713
 10
334.9940525476
 20
-30.1304449024
 10
334.0666709476
 20
-28.165008496
 10
333.0372944038
 20
-26.3122408393
 10
331.9082547853
 20
-24.576339047
 10
330.6821097299
 20
-22.9612354951
 10
329.3616368506
 20
-21.4705889124
 10
327.9498274432
 20
-20.107776093
 10
326.4498797099
 20
-18.8758842463
 10
324.865191515
 20
-17.7777040034
 10
323.1993526867
 20
-16.8157230958
 10
321.456136886
 20
-15.9921207198
 10
319.6394930572
 20
-15.3087625995
 10
317.7535364828
 20
-14.767196761
 10
315.8025394612
 20
-14.368650025
 10
313.7909216281
 20
-14.114025228
 10
311.7232399449
 20
-14.0038991772
 10
309.6041783756
 20
-14.0385213435
 10
307.4385372763
 20
-14.2178132964
 10
305.2312225205
 20
-14.5413688822
 10
302.9872343863
 20
-15.0084551432
 10
300.7116562283
 20
-15.6180139789
 10
298.4096429631
 20
-16.3686645426
 10
296.0864093911
 20
-17.2587063691
 10
293.7472183835
 20
-18.2861232275
 10
291.3973689605
 20
-19.4485876882
 10
289.0421842866
 20
-20.7434663953
 10
286.6869996127
 20
-22.1678260321
 10
284.3371501897
 20
-23.7184399657
 10
281.9979591821
 20
-25.391795557
 10
279.6747256101
 20
-27.1841021173
 10
277.3727123449
 20
-29.0912994959
 10
275.0971341869
 20
-31.1090672771
 10
272.8531460527
 20
-33.232834568
 10
270.6458312969
 20
-35.4577903527
 10
268.4801901976
 20
-37.7788943906
 10
266.3611286283
 20
-40.1908886346
 10
264.2934469451
 20
-42.6883091418
 10
262.281829112
 20
-45.2654984517
 10
260.3308320904
 20
-47.9166184015
 10
258.444875516
 20
-50.6356633518
 10
256.6282316872
 20
-53.4164737913
 10
254.8850158865
 20
-56.2527502899
 10
253.2191770582
 20
-59.1380677692
 10
251.6344888633
 20
-62.0658900569
 10
250.13454113
 20
-65.029584694
 10
248.7227317226
 20
-68.0224379589
 10
247.4022588433
 20
-71.0376700763
 10
246.1761137879
 20
-74.0684505756
 10
245.0470741694
 20
-77.1079137643
 10
244.0176976256
 20
-80.1491742806
 10
243.0903160256
 20
-83.1853426913
 10
242.2670301868
 20
-86.2095410984
 10
241.5497051165
 20
-89.2149187198
 10
240.9399657868
 20
-92.1946674086
 10
240.4391934533
 20
-95.1420370756
 10
240.0485225264
 20
-98.0503509805
 10
239.7688380013
 20
-100.9130208569
 10
239.6007734537
 20
-103.7235618369
 10
239.5447096035
 20
-106.4756071411
 10
239.6007734537
 20
-109.1629225018
 10
239.7688380013
 20
-111.7794202853
 10
240.0485225264
 20
-114.3191732827
 10
240.4391934533
 20
-116.7764281364
 10
240.9399657868
 20
-119.145618374
 10
241.5497051165
 20
-121.4213770175
 10
242.2670301868
 20
-123.5985487417
 10
243.0903160256
 20
-125.6722015523
 10
244.0176976256
 20
-127.6376379587
 10
245.0470741694
 20
-129.4904056154
 10
246.1761137879
 20
-131.2263074076
 10
247.4022588433
 20
-132.8414109596
 10
248.7227317226
 20
-134.3320575422
 10
250.13454113
 20
-135.6948703616
 10
251.6344888633
 20
-136.9267622084
 10
253.2191770582
 20
-138.0249424513
 10
254.8850158865
 20
-138.9869233588
 10
256.6282316872
 20
-139.8105257349
 10
258.444875516
 20
-140.4938838551
 10
260.3308320904
 20
-141.0354496937
 10
262.281829112
 20
-141.4339964297
 10
264.2934469451
 20
-141.6886212266
 10
266.3611286283
 20
-141.7987472774
 10
268.4801901976
 20
-141.7641251112
 10
270.6458312969
 20
-141.5848331582
 10
272.8531460527
 20
-141.2612775725
 10
275.0971341869
 20
-140.7941913114
 10
277.3727123449
 20
-140.1846324757
 10
279.6747256101
 20
-139.4339819121
 10
281.9979591821
 20
-138.5439400856
 10
284.3371501897
 20
-137.5165232271
 10
286.6869996127
 20
-136.3540587664
 10
289.0421842866
 20
-135.0591800593
  0
LWPOLYLINE
  5
AE
330
1F
100
AcDbEntity
  8
0
  6
Continuous
 62
     7
370
    25
100
AcDbPolyline
 90
       51
 70
   128
 43
0.0
 10
364.7704071765
 20
-178.7761525918
 10
367.1255918504
 20
-177.351792955
 10
369.4754412734
 20
-175.8011790214
 10
371.814632281
 20
-174.1278234301
 10
374.137865853
 20
-172.3355168697
 10
376.4398791182
 20
-170.4283194912
 10
378.7154572762
 20
-168.41055171
 10
380.9594454105
 20
-166.286784419
 10
383.1667601662
 20
-164.0618286344
 10
385.3324012655
 20
-161.7407245965
 10
387.4514628348
 20
-159.3287303525
 10
389.5191445181
 20
-156.8313098452
 10
391.5307623512
 20
-154.2541205354
 10
393.4817593728
 20
-151.6030005856
 10
395.3677159471
 20
-148.8839556353
 10
397.1843597759
 20
-146.1031451958
 10
398.9275755767
 20
-143.2668686972
 10
400.5934144049
 20
-140.3815512179
 10
402.1781025999
 20
-137.4537289302
 10
403.6780503331
 20
-134.4900342931
 10
405.0898597406
 20
-131.4971810282
 10
406.4103326199
 20
-128.4819489108
 10
407.6364776752
 20
-125.4511684115
 10
408.7655172937
 20
-122.4117052228
 10
409.7948938375
 20
-119.3704447064
 10
410.7222754375
 20
-116.3342762958
 10
411.5455612763
 20
-113.3100778887
 10
412.2628863466
 20
-110.3047002673
 10
412.8726256763
 20
-107.3249515785
 10
413.3733980099
 20
-104.3775819115
 10
413.7640689368
 20
-101.4692680066
 10
414.0437534618
 20
-98.6065981301
 10
414.2118180095
 20
-95.7960571502
 10
414.2678818596
 20
-93.044011846
 10
414.2118180095
 20
-90.3566964853
 10
414.0437534618
 20
-87.7401987017
 10
413.7640689368
 20
-85.2004457044
 10
413.3733980099
 20
-82.7431908506
 10
412.8726256763
 20
-80.3740006131
 10
412.2628863466
 20
-78.0982419695
 10
411.5455612763
 20
-75.9210702454
 10
410.7222754375
 20
-73.8474174348
 10
409.7948938375
 20
-71.8819810284
 10
408.7655172937
 20
-70.0292133717
 10
407.6364776752
 20
-68.2933115795
 10
406.4103326199
 20
-66.6782080275
 10
405.0898597406
 20
-65.1875614448
 10
403.6780503331
 20
-63.8247486254
 10
402.1781025999
 20
-62.5928567787
 10
400.5934144049
 20
-61.4946765358
 10
399.7675628188
 20
-60.9948753931
  0
LWPOLYLINE
  5
AF
330
1F
100
AcDbEntity
  8
0
  6
Continuous
 62
     7
370
    25
100
AcDbPolyline
 90
       18
 70
   128
 43
0.0
 10
329.7732515343
 20
-182.2417161264
 10
330.6132387764
 20
-182.7038958913
 10
332.3564545771
 20
-183.5274982673
 10
334.173098406
 20
-184.2108563875
 10
336.0590549803
 20
-184.7524222261
 10
338.0100520019
 20
-185.1509689621
 10
340.021669835
 20
-185.405593759
 10
342.0893515182
 20
-185.5157198099
 10
344.2084130875
 20
-185.4810976436
 10
346.3740541868
 20
-185.3018056906
 10
348.5813689426
 20
-184.9782501049
 10
350.8253570769
 20
-184.5111638439
 10
353.1009352348
 20
-183.9016050081
 10
355.4029485001
 20
-183.1509544445
 10
357.7261820721
 20
-182.260912618
 10
360.0653730796
 20
-181.2334957596
 10
362.4152225027
 20
-180.0710312988
 10
364.7704071765
 20
-178.7761525918
  0
LWPOLYLINE
  5
B0
330
1F
100
AcDbEntity
  8
0
  6
Continuous
 62
     7
370
    25
100
AcDbPolyline
 90
      120
 70
   128
 43
0.0
 10
289.0421842866
 20
-124.6891117484
 10
291.180494561
 20
-123.3894885232
 10
293.3128449811
 20
-121.9630816227
 10
295.4332923039
 20
-120.4138666988
 10
297.5359264623
 20
-118.7461616913
 10
299.6148870379
 20
-116.9646147932
 10
301.6643795947
 20
-115.0741914953
 10
303.6786918292
 20
-113.0801607463
 10
305.6522094921
 20
-110.9880802675
 10
307.5794320356
 20
-108.8037810625
 10
309.4549879448
 20
-106.533351165
 10
311.273649709
 20
-104.1831186703
 10
313.0303483918
 20
-101.7596340978
 10
314.7201877587
 20
-99.2696521338
 10
316.3384579245
 20
-96.7201128045
 10
317.8806484798
 20
-94.1181221335
 10
319.3424610631
 20
-91.4709323353
 10
320.7198213404
 20
-88.7859216027
 10
322.0088903616
 20
-86.0705735422
 10
323.2060752602
 20
-83.3324563158
 10
324.3080392672
 20
-80.5792015475
 10
325.3117110111
 20
-77.8184830519
 10
326.2142930789
 20
-75.0579954468
 10
327.0132698123
 20
-72.3054327062
 10
327.7064143201
 20
-69.5684667161
 10
328.291794684
 20
-66.8547258917
 10
328.7677793441
 20
-64.1717739153
 10
329.1330416456
 20
-61.5270886554
 10
329.3865635372
 20
-58.928041324
 10
329.5276384077
 20
-56.3818759323
 10
329.5558730563
 20
-53.8956890999
 10
329.4711887878
 20
-51.4764102753
 10
329.2738216326
 20
-49.1307824227
 10
328.9643216882
 20
-46.8653432274
 10
328.5435515867
 20
-44.686406875
 10
328.0126840896
 20
-42.6000464517
 10
327.3731988199
 20
-40.6120770184
 10
326.6268781378
 20
-38.7280394023
 10
325.7758021728
 20
-36.9531847542
 10
324.8223430264
 20
-35.2924599124
 10
323.7691581601
 20
-33.7504936148
 10
322.6191829892
 20
-32.3315835982
 10
321.3756227005
 20
-31.0396846191
 10
320.0419433198
 20
-29.8783974318
 10
318.6218620507
 20
-28.8509587519
 10
317.1193369143
 20
-27.9602322354
 10
315.5385557177
 20
-27.2087004967
 10
313.8839243816
 20
-26.5984581896
 10
312.1600546603
 20
-26.1312061689
 10
310.371751288
 20
-25.8082467498
 10
308.5239985868
 20
-25.6304800781
 10
306.6219465749
 20
-25.5984016214
 10
304.6708966125
 20
-25.7121007881
 10
302.6762866258
 20
-25.9712606783
 10
300.6436759504
 20
-26.3751589667
 10
298.578729837
 20
-26.9226699166
 10
296.4872036606
 20
-27.6122675166
 10
294.37492688
 20
-28.4420297345
 10
292.2477867893
 20
-29.4096438743
 10
290.1117121095
 20
-30.5124130218
 10
287.9726564637
 20
-31.7472635615
 10
285.8365817839
 20
-33.1107537436
 10
283.7094416932
 20
-34.5990832763
 10
281.5971649126
 20
-36.2081039183
 10
279.5056387362
 20
-37.9333310405
 10
277.4406926228
 20
-39.7699561255
 10
275.4080819474
 20
-41.7128601697
 10
273.4134719607
 20
-43.7566279511
 10
271.4624219983
 20
-45.8955631223
 10
269.5603699864
 20
-48.1237040874
 10
267.7126172852
 20
-50.4348406178
 10
265.9243139129
 20
-52.8225311616
 10
264.2004441916
 20
-55.2801207969
 10
262.5458128555
 20
-57.8007597807
 10
260.9650316589
 20
-60.37742264
 10
259.4625065225
 20
-63.0029277532
 10
258.0424252534
 20
-65.6699573668
 10
256.7087458727
 20
-68.3710779908
 10
255.465185584
 20
-71.0987611176
 10
254.3152104131
 20
-73.8454042051
 10
253.2620255468
 20
-76.6033518663
 10
252.3085664004
 20
-79.3649172065
 10
251.4574904354
 20
-82.1224032478
 10
250.7111697533
 20
-84.868124382
 10
250.0716844836
 20
-87.5944277919
 10
249.5408169865
 20
-90.2937147808
 10
249.120046885
 20
-92.9584619517
 10
248.8105469406
 20
-95.5812421765
 10
248.6131797854
 20
-98.1547452961
 10
248.5284955169
 20
-100.6717984958
 10
248.5567301655
 20
-103.1253862969
 10
248.697805036
 20
-105.5086701102
 10
248.9513269276
 20
-107.8150072961
 10
249.3165892291
 20
-110.0379696792
 10
249.7925738892
 20
-112.1713614648
 10
250.3779542531
 20
-114.2092365072
 10
251.0710987609
 20
-116.1459148833
 10
251.8700754943
 20
-117.9759987229
 10
252.7726575621
 20
-119.6943872543
 10
253.776329306
 20
-121.2962910204
 10
254.878293313
 20
-122.7772452281
 10
256.0754782116
 20
-124.1331221923
 10
257.3645472328
 20
-125.3601428408
 10
258.7419075101
 20
-126.454887247
 10
260.2037200934
 20
-127.4143041618
 10
261.7459106487
 20
-128.2357195183
 10
263.3641808145
 20
-128.9168438845
 10
265.0540201814
 20
-129.4557788446
 10
266.8107188642
 20
-129.8510222903
 10
268.6293806284
 20
-130.1014726072
 10
270.5049365377
 20
-130.2064317452
 10
272.4321590811
 20
-130.1656071646
 10
274.405676744
 20
-129.9791126506
 10
276.4199889785
 20
-129.6474679971
 10
278.4694815353
 20
-129.171597557
 10
280.5484421109
 20
-128.5528276667
 10
282.6510762693
 20
-127.7928829488
 10
284.7715235921
 20
-126.8938815055
 10
286.9038740122
 20
-125.8583290152
 10
289.0421842866
 20
-124.6891117484
  0
ENDSEC
  0
SECTION
  2
OBJECTS
  0
DICTIONARY
  5
C
330
0
100
AcDbDictionary
281
     1
  3
ACAD_GROUP
350
D
  3
ACAD_LAYOUT
350
1A
  3
ACAD_MLINESTYLE
350
17
  3
ACAD_PLOTSETTINGS
350
19
  3
ACAD_PLOTSTYLENAME
350
E
  3
ACAD_SCALELIST
350
47
  3
DWGPROPS
350
B1
  0
DICTIONARY
  5
D
102
{ACAD_REACTORS
330
C
102
}
330
C
100
AcDbDictionary
281
     1
  0
DICTIONARY
  5
1A
102
{ACAD_REACTORS
330
C
102
}
330
C
100
AcDbDictionary
281
     1
  3
Layout1
350
1E
  3
Layout2
350
26
  3
Model
350
22
  0
DICTIONARY
  5
17
102
{ACAD_REACTORS
330
C
102
}
330
C
100
AcDbDictionary
281
     1
  3
Standard
350
18
  0
DICTIONARY
  5
19
102
{ACAD_REACTORS
330
C
102
}
330
C
100
AcDbDictionary
281
     1
  0
ACDBDICTIONARYWDFLT
  5
E
102
{ACAD_REACTORS
330
C
102
}
330
C
100
AcDbDictionary
281
     1
  3
Normal
350
F
100
AcDbDictionaryWithDefault
340
F
  0
DICTIONARY
  5
47
102
{ACAD_REACTORS
330
C
102
}
330
C
100
AcDbDictionary
281
     1
  3
A0
350
48
  3
A1
350
49
  3
A2
350
4A
  3
A3
350
4B
  3
A4
350
4C
  3
A5
350
4D
  3
A6
350
4E
  3
A7
350
4F
  3
A8
350
50
  3
A9
350
51
  3
B0
350
52
  3
B1
350
53
  3
B2
350
54
  3
B3
350
55
  3
B4
350
56
  3
B5
350
57
  3
B6
350
58
  3
B7
350
59
  3
B8
350
5A
  3
B9
350
5B
  3
C0
350
5C
  3
C1
350
5D
  3
C2
350
5E
  3
C3
350
5F
  3
C4
350
60
  3
C5
350
61
  3
C6
350
62
  3
C7
350
63
  3
C8
350
64
  3
C9
350
65
  3
D0
350
66
  3
D1
350
67
  3
D2
350
68
  0
XRECORD
  5
B1
102
{ACAD_REACTORS
330
C
102
}
330
C
100
AcDbXrecord
280
     1
  1
DWGPROPS COOKIE
  2

  3

  4

  6

  7

  8
b.kav
  9

300
=
301
=
302
=
303
=
304
=
305
=
306
=
307
=
308
=
309
=
 40
0.0
 41
2460697.415941794
 42
2460697.415941794
  1

 90
        0
  0
LAYOUT
  5
1E
102
{ACAD_REACTORS
330
1A
102
}
330
1A
100
AcDbPlotSettings
  1

  2
none_device
  4

  6

 40
0.0
 41
0.0
 42
0.0
 43
0.0
 44
0.0
 45
0.0
 46
0.0
 47
0.0
 48
0.0
 49
0.0
140
0.0
141
0.0
142
1.0
143
1.0
 70
   688
 72
     1
 73
     0
 74
     5
  7

 75
    16
147
1.0
148
0.0
149
0.0
100
AcDbLayout
  1
Layout1
 70
     1
 71
     1
 10
0.0
 20
0.0
 11
420.0
 21
297.0
 12
0.0
 22
0.0
 32
0.0
 14
1.0000000000E+20
 24
1.0000000000E+20
 34
1.0000000000E+20
 15
-1.0000000000E+20
 25
-1.0000000000E+20
 35
-1.0000000000E+20
146
0.0
 13
0.0
 23
0.0
 33
0.0
 16
1.0
 26
0.0
 36
0.0
 17
0.0
 27
1.0
 37
0.0
 76
     0
330
1B
  0
LAYOUT
  5
26
102
{ACAD_REACTORS
330
1A
102
}
330
1A
100
AcDbPlotSettings
  1

  2
none_device
  4

  6

 40
0.0
 41
0.0
 42
0.0
 43
0.0
 44
0.0
 45
0.0
 46
0.0
 47
0.0
 48
0.0
 49
0.0
140
0.0
141
0.0
142
1.0
143
1.0
 70
   688
 72
     1
 73
     0
 74
     5
  7

 75
    16
147
1.0
148
0.0
149
0.0
100
AcDbLayout
  1
Layout2
 70
     1
 71
     2
 10
0.0
 20
0.0
 11
0.0
 21
0.0
 12
0.0
 22
0.0
 32
0.0
 14
0.0
 24
0.0
 34
0.0
 15
0.0
 25
0.0
 35
0.0
146
0.0
 13
0.0
 23
0.0
 33
0.0
 16
1.0
 26
0.0
 36
0.0
 17
0.0
 27
1.0
 37
0.0
 76
     0
330
23
  0
LAYOUT
  5
22
102
{ACAD_REACTORS
330
1A
102
}
330
1A
100
AcDbPlotSettings
  1

  2
none_device
  4
Letter_(8.50_x_11.00_Inches)
  6

 40
6.35
 41
6.35
 42
6.35000508
 43
6.35000508
 44
215.9
 45
279.4
 46
0.0
 47
0.0
 48
0.0
 49
0.0
140
0.0
141
0.0
142
1.0
143
1.0
 70
  1712
 72
     1
 73
     0
 74
     0
  7

 75
     0
147
1.0
148
0.0
149
0.0
100
AcDbLayout
  1
Model
 70
     1
 71
     0
 10
0.0
 20
0.0
 11
279.4
 21
215.9
 12
0.0
 22
0.0
 32
0.0
 14
0.0
 24
0.0
 34
0.0
 15
279.4
 25
215.9
 35
0.0
146
0.0
 13
0.0
 23
0.0
 33
0.0
 16
1.0
 26
0.0
 36
0.0
 17
0.0
 27
1.0
 37
0.0
 76
     0
330
1F
331
29
  0
MLINESTYLE
  5
18
102
{ACAD_REACTORS
330
17
102
}
330
17
100
AcDbMlineStyle
  2
Standard
 70
     0
  3

 62
   256
 51
90.0
 52
90.0
 71
     2
 49
0.5
 62
   256
  6
BYLAYER
 49
-0.5
 62
   256
  6
BYLAYER
  0
ACDBPLACEHOLDER
  5
F
102
{ACAD_REACTORS
330
E
102
}
330
E
  0
SCALE
  5
48
102
{ACAD_REACTORS
330
47
102
}
330
47
100
AcDbScale
 70
     0
300
1:1
140
1.0
141
1.0
290
     1
  0
SCALE
  5
49
102
{ACAD_REACTORS
330
47
102
}
330
47
100
AcDbScale
 70
     0
300
1:2
140
1.0
141
2.0
290
     0
  0
SCALE
  5
4A
102
{ACAD_REACTORS
330
47
102
}
330
47
100
AcDbScale
 70
     0
300
1:4
140
1.0
141
4.0
290
     0
  0
SCALE
  5
4B
102
{ACAD_REACTORS
330
47
102
}
330
47
100
AcDbScale
 70
     0
300
1:5
140
1.0
141
5.0
290
     0
  0
SCALE
  5
4C
102
{ACAD_REACTORS
330
47
102
}
330
47
100
AcDbScale
 70
     0
300
1:8
140
1.0
141
8.0
290
     0
  0
SCALE
  5
4D
102
{ACAD_REACTORS
330
47
102
}
330
47
100
AcDbScale
 70
     0
300
1:10
140
1.0
141
10.0
290
     0
  0
SCALE
  5
4E
102
{ACAD_REACTORS
330
47
102
}
330
47
100
AcDbScale
 70
     0
300
1:16
140
1.0
141
16.0
290
     0
  0
SCALE
  5
4F
102
{ACAD_REACTORS
330
47
102
}
330
47
100
AcDbScale
 70
     0
300
1:20
140
1.0
141
20.0
290
     0
  0
SCALE
  5
50
102
{ACAD_REACTORS
330
47
102
}
330
47
100
AcDbScale
 70
     0
300
1:30
140
1.0
141
30.0
290
     0
  0
SCALE
  5
51
102
{ACAD_REACTORS
330
47
102
}
330
47
100
AcDbScale
 70
     0
300
1:40
140
1.0
141
40.0
290
     0
  0
SCALE
  5
52
102
{ACAD_REACTORS
330
47
102
}
330
47
100
AcDbScale
 70
     0
300
1:50
140
1.0
141
50.0
290
     0
  0
SCALE
  5
53
102
{ACAD_REACTORS
330
47
102
}
330
47
100
AcDbScale
 70
     0
300
1:100
140
1.0
141
100.0
290
     0
  0
SCALE
  5
54
102
{ACAD_REACTORS
330
47
102
}
330
47
100
AcDbScale
 70
     0
300
2:1
140
2.0
141
1.0
290
     0
  0
SCALE
  5
55
102
{ACAD_REACTORS
330
47
102
}
330
47
100
AcDbScale
 70
     0
300
4:1
140
4.0
141
1.0
290
     0
  0
SCALE
  5
56
102
{ACAD_REACTORS
330
47
102
}
330
47
100
AcDbScale
 70
     0
300
8:1
140
8.0
141
1.0
290
     0
  0
SCALE
  5
57
102
{ACAD_REACTORS
330
47
102
}
330
47
100
AcDbScale
 70
     0
300
10:1
140
10.0
141
1.0
290
     0
  0
SCALE
  5
58
102
{ACAD_REACTORS
330
47
102
}
330
47
100
AcDbScale
 70
     0
300
100:1
140
100.0
141
1.0
290
     0
  0
SCALE
  5
59
102
{ACAD_REACTORS
330
47
102
}
330
47
100
AcDbScale
 70
     0
300
1/128" = 1'-0"
140
0.0078125
141
12.0
290
     0
  0
SCALE
  5
5A
102
{ACAD_REACTORS
330
47
102
}
330
47
100
AcDbScale
 70
     0
300
1/64" = 1'-0"
140
0.015625
141
12.0
290
     0
  0
SCALE
  5
5B
102
{ACAD_REACTORS
330
47
102
}
330
47
100
AcDbScale
 70
     0
300
1/32" = 1'-0"
140
0.03125
141
12.0
290
     0
  0
SCALE
  5
5C
102
{ACAD_REACTORS
330
47
102
}
330
47
100
AcDbScale
 70
     0
300
1/16" = 1'-0"
140
0.0625
141
12.0
290
     0
  0
SCALE
  5
5D
102
{ACAD_REACTORS
330
47
102
}
330
47
100
AcDbScale
 70
     0
300
3/32" = 1'-0"
140
0.09375
141
12.0
290
     0
  0
SCALE
  5
5E
102
{ACAD_REACTORS
330
47
102
}
330
47
100
AcDbScale
 70
     0
300
1/8" = 1'-0"
140
0.125
141
12.0
290
     0
  0
SCALE
  5
5F
102
{ACAD_REACTORS
330
47
102
}
330
47
100
AcDbScale
 70
     0
300
3/16" = 1'-0"
140
0.1875
141
12.0
290
     0
  0
SCALE
  5
60
102
{ACAD_REACTORS
330
47
102
}
330
47
100
AcDbScale
 70
     0
300
1/4" = 1'-0"
140
0.25
141
12.0
290
     0
  0
SCALE
  5
61
102
{ACAD_REACTORS
330
47
102
}
330
47
100
AcDbScale
 70
     0
300
3/8" = 1'-0"
140
0.375
141
12.0
290
     0
  0
SCALE
  5
62
102
{ACAD_REACTORS
330
47
102
}
330
47
100
AcDbScale
 70
     0
300
1/2" = 1'-0"
140
0.5
141
12.0
290
     0
  0
SCALE
  5
63
102
{ACAD_REACTORS
330
47
102
}
330
47
100
AcDbScale
 70
     0
300
3/4" = 1'-0"
140
0.75
141
12.0
290
     0
  0
SCALE
  5
64
102
{ACAD_REACTORS
330
47
102
}
330
47
100
AcDbScale
 70
     0
300
1" = 1'-0"
140
1.0
141
12.0
290
     0
  0
SCALE
  5
65
102
{ACAD_REACTORS
330
47
102
}
330
47
100
AcDbScale
 70
     0
300
1-1/2" = 1'-0"
140
1.5
141
12.0
290
     0
  0
SCALE
  5
66
102
{ACAD_REACTORS
330
47
102
}
330
47
100
AcDbScale
 70
     0
300
3" = 1'-0"
140
3.0
141
12.0
290
     0
  0
SCALE
  5
67
102
{ACAD_REACTORS
330
47
102
}
330
47
100
AcDbScale
 70
     0
300
6" = 1'-0"
140
6.0
141
12.0
290
     0
  0
SCALE
  5
68
102
{ACAD_REACTORS
330
47
102
}
330
47
100
AcDbScale
 70
     0
300
1'-0" = 1'-0"
140
12.0
141
12.0
290
     0
  0
ENDSEC
  0
EOF
